0
SECTION
2
HEADER
9
$INSUNITS
70
4
9
$ACADVER
1
AC1014
9
$HANDSEED
5
FFFF
0
ENDSEC
0
SECTION
2
TABLES
0
TABLE
2
VPORT
5
8
100
AcDbSymbolTable
0
ENDTAB
0
TABLE
2
LTYPE
5
5
100
AcDbSymbolTable
0
LTYPE
5
14
100
AcDbSymbolTableRecord
100
AcDbLinetypeTableRecord
2
BYBLOCK
70
0
0
LTYPE
5
15
100
AcDbSymbolTableRecord
100
AcDbLinetypeTableRecord
2
BYLAYER
70
0
0
ENDTAB
0
TABLE
2
LAYER
5
2
100
AcDbSymbolTable
70
2
0
LAYER
5
50
100
AcDbSymbolTableRecord
100
AcDbLayerTableRecord
2
0
70
0
6
CONTINUOUS
0
ENDTAB
0
TABLE
2
STYLE
5
3
100
AcDbSymbolTable
70
1
0
STYLE
5
11
100
AcDbSymbolTableRecord
100
AcDbTextStyleTableRecord
2
STANDARD
70
0
0
ENDTAB
0
TABLE
2
VIEW
5
6
100
AcDbSymbolTable
70
0
0
ENDTAB
0
TABLE
2
UCS
5
7
100
AcDbSymbolTable
70
0
0
ENDTAB
0
TABLE
2
APPID
5
9
100
AcDbSymbolTable
70
2
0
APPID
5
12
100
AcDbSymbolTableRecord
100
AcDbRegAppTableRecord
2
ACAD
70
0
0
ENDTAB
0
TABLE
2
DIMSTYLE
5
A
100
AcDbSymbolTable
70
1
0
ENDTAB
0
TABLE
2
BLOCK_RECORD
5
1
100
AcDbSymbolTable
70
1
0
BLOCK_RECORD
5
1F
100
AcDbSymbolTableRecord
100
AcDbBlockTableRecord
2
*MODEL_SPACE
0
BLOCK_RECORD
5
1B
100
AcDbSymbolTableRecord
100
AcDbBlockTableRecord
2
*PAPER_SPACE
0
ENDTAB
0
ENDSEC
0
SECTION
2
BLOCKS
0
BLOCK
5
20
100
AcDbEntity
100
AcDbBlockBegin
2
*MODEL_SPACE
0
ENDBLK
5
21
100
AcDbEntity
100
AcDbBlockEnd
0
BLOCK
5
1C
100
AcDbEntity
100
AcDbBlockBegin
2
*PAPER_SPACE
0
ENDBLK
5
1D
100
AcDbEntity
100
AcDbBlockEnd
0
ENDSEC
0
SECTION
2
ENTITIES
0
CIRCLE
5
100
100
AcDbEntity
8
0
100
AcDbCircle
10
-89.933856166662167
20
343.82788036988819
30
0
40
6.2497318501254995
210
0
220
0
230
1
0
CIRCLE
5
101
100
AcDbEntity
8
0
100
AcDbCircle
10
-149.9312819278851
20
433.82401901169544
30
0
40
6.2497318501254995
210
0
220
0
230
1
0
CIRCLE
5
102
100
AcDbEntity
8
0
100
AcDbCircle
10
150.05584687814971
20
763.80986069832159
30
0
40
6.2497318501254995
210
0
220
0
230
1
0
CIRCLE
5
103
100
AcDbEntity
8
0
100
AcDbCircle
10
0.062282475123214276
20
493.82144477290745
30
0
40
6.2497318501254995
210
0
220
0
230
1
0
CIRCLE
5
104
100
AcDbEntity
8
0
100
AcDbCircle
10
-89.933856166662167
20
493.82144477290745
30
0
40
6.2497318501254995
210
0
220
0
230
1
0
CIRCLE
5
105
100
AcDbEntity
8
0
100
AcDbCircle
10
0.062282475123214276
20
343.82788036988819
30
0
40
6.2497318501254995
210
0
220
0
230
1
0
CIRCLE
5
106
100
AcDbEntity
8
0
100
AcDbCircle
10
60.059708236349834
20
253.83174172808839
30
0
40
6.2497318501254995
210
0
220
0
230
1
0
CIRCLE
5
107
100
AcDbEntity
8
0
100
AcDbCircle
10
60.059708236349834
20
193.83431596687629
30
0
40
6.2497318501254995
210
0
220
0
230
1
0
CIRCLE
5
108
100
AcDbEntity
8
0
100
AcDbCircle
10
150.05584687815701
20
343.82788036988819
30
0
40
6.2497318501254995
210
0
220
0
230
1
0
CIRCLE
5
109
100
AcDbEntity
8
0
100
AcDbCircle
10
-29.936430405475548
20
283.83045460869431
30
0
40
6.2497318501254995
210
0
220
0
230
1
0
CIRCLE
5
110
100
AcDbEntity
8
0
100
AcDbCircle
10
30.060995355743792
20
313.82916748928579
30
0
40
6.2497318501254995
210
0
220
0
230
1
0
LWPOLYLINE
5
111
100
AcDbEntity
8
0
100
AcDbPolyline
90
8
70
1
43
0.0
10
-89.933856166662167
20
110.83796297230769
10
-119.93256904728273
20
110.83796297230768
42
0.41421356237308254
10
-126.18230089740823
20
104.58823112218948
10
-126.18230089740821
20
103.08812352795582
42
0.41421356237312501
10
-119.93256904728273
20
96.838391677830359
10
-89.933856166662167
20
96.838391677830373
42
0.41421356237307339
10
-83.684124316558481
20
103.08812352795582
10
-83.684124316558467
20
104.58823112218948
42
0.41421356237312085
0
CIRCLE
5
112
100
AcDbEntity
8
0
100
AcDbCircle
10
0.062282475123214276
20
697.81269236099649
30
0
40
6.2497318501254995
210
0
220
0
230
1
0
CIRCLE
5
113
100
AcDbEntity
8
0
100
AcDbCircle
10
90.05842111693039
20
493.82144477290745
30
0
40
6.2497318501254995
210
0
220
0
230
1
0
CIRCLE
5
114
100
AcDbEntity
8
0
100
AcDbCircle
10
-119.93256904728271
20
283.83045460869431
30
0
40
6.2497318501254995
210
0
220
0
230
1
0
CIRCLE
5
115
100
AcDbEntity
8
0
100
AcDbCircle
10
180.05455975873033
20
853.8059993401364
30
0
40
6.2497318501254995
210
0
220
0
230
1
0
CIRCLE
5
116
100
AcDbEntity
8
0
100
AcDbCircle
10
-200.929093824891
20
193.83431596687629
30
0
40
4.9997854801004129
210
0
220
0
230
1
0
CIRCLE
5
117
100
AcDbEntity
8
0
100
AcDbCircle
10
200.49841725162332
20
703.81243493712429
30
0
40
4.9997854801004129
210
0
220
0
230
1
0
LWPOLYLINE
5
118
100
AcDbEntity
8
0
100
AcDbPolyline
90
8
70
1
43
0.0
10
126.3576542643107
20
103.08812352795582
42
-0.41421356237312168
10
120.1079224141852
20
96.838391677830373
10
90.109209533582813
20
96.838391677830373
42
-0.41421356237307261
10
83.859477683479156
20
103.08812352795582
10
83.85947768347917
20
104.5882311221895
42
-0.41421356237312418
10
90.109209533582813
20
110.83796297230769
10
120.1079224141852
20
110.83796297230765
42
-0.41421356237308338
10
126.3576542643107
20
104.58823112218948
0
CIRCLE
5
119
100
AcDbEntity
8
0
100
AcDbCircle
10
200.49841725161599
20
763.80986069832159
30
0
40
4.9997854801004129
210
0
220
0
230
1
0
CIRCLE
5
120
100
AcDbEntity
8
0
100
AcDbCircle
10
-119.93256904728271
20
73.839464444470309
30
0
40
6.2497318501254995
210
0
220
0
230
1
0
CIRCLE
5
121
100
AcDbEntity
8
0
100
AcDbCircle
10
-200.929093824891
20
703.81243493712429
30
0
40
4.9997854801004129
210
0
220
0
230
1
0
CIRCLE
5
122
100
AcDbEntity
8
0
100
AcDbCircle
10
-200.929093824891
20
553.81887053410503
30
0
40
4.9997854801004129
210
0
220
0
230
1
0
LWPOLYLINE
5
123
100
AcDbEntity
8
0
100
AcDbPolyline
90
26
70
1
43
0.0
10
-140.00000000000003
20
553.81860238423064
42
-0.41421356237309503
10
-133.75000000000003
20
560.06860238423064
10
133.74999999999997
20
560.06860238423064
42
-0.41421356237309503
10
139.99999999999997
20
553.81860238423064
10
139.99999999999997
20
523.82042580337702
42
-0.41421356237309503
10
133.74999999999997
20
517.57042580337702
10
107.55793844715629
20
517.57042580337702
42
-0.41421356237309503
10
101.30793844715629
20
523.82042580337702
10
101.30793844715629
20
524.64754262321219
42
0.99999999999999989
10
78.808903786726347
20
524.64754262321196
10
78.808903786726347
20
523.82042580337702
42
-0.41421356237309503
10
72.558903786726347
20
517.57042580337702
10
17.561799805367293
20
517.57042580337702
42
-0.41421356237309503
10
11.311799805367295
20
523.82042580337702
10
11.311799805367304
20
524.64754262321219
42
0.99999999999999989
10
-11.187234855080863
20
524.64754262321196
10
-11.187234855080854
20
523.82042580337702
42
-0.41421356237309515
10
-17.437234855080852
20
517.57042580337702
10
-72.43433883645443
20
517.57042580337702
42
-0.41421356237309503
10
-78.68433883645443
20
523.82042580337702
10
-78.684338836454401
20
524.64754262321219
42
0.99999999999999989
10
-101.18337349690621
20
524.6475426232123
10
-101.18337349690621
20
523.82042580337702
42
-0.41421356237309503
10
-107.43337349690621
20
517.57042580337702
10
-133.75000000000003
20
517.57042580337702
42
-0.41421356237309503
10
-140.00000000000003
20
523.82042580337702
0
CIRCLE
5
124
100
AcDbEntity
8
0
100
AcDbCircle
10
-200.929093824891
20
343.82788036988819
30
0
40
4.9997854801004129
210
0
220
0
230
1
0
LWPOLYLINE
5
125
100
AcDbEntity
8
0
100
AcDbPolyline
90
8
70
1
43
0.0
10
140.00000000000003
20
130.08731924547794
10
140.00000000000003
20
168.42435642985717
42
0.41514605009812738
10
133.73010839425504
20
174.67432477569869
10
-133.76989160574496
20
173.82295973793558
42
0.41328168909585039
10
-140.00000000000003
20
167.57299139209405
10
-140.00000000000003
20
130.08731924547794
42
0.41421356237309503
10
-133.75000000000003
20
123.83731924547796
10
133.75
20
123.83731924547796
42
0.41421356237309587
0
CIRCLE
5
126
100
AcDbEntity
8
0
100
AcDbCircle
10
200.49841725163782
20
373.82659325049792
30
0
40
4.9997854801004129
210
0
220
0
230
1
0
CIRCLE
5
127
100
AcDbEntity
8
0
100
AcDbCircle
10
200.49841725163054
20
733.81114781772669
30
0
40
4.9997854801004129
210
0
220
0
230
1
0
CIRCLE
5
128
100
AcDbEntity
8
0
100
AcDbCircle
10
200.49841725162332
20
673.81372205651462
30
0
40
4.9997854801004129
210
0
220
0
230
1
0
LWPOLYLINE
5
129
100
AcDbEntity
8
0
100
AcDbPolyline
90
8
70
1
43
0.0
10
150.10663529480939
20
500.82123042014592
42
-0.41421356237307422
10
156.35636714493489
20
494.57149857002059
10
156.35636714493484
20
493.07139097579795
42
-0.41421356237312834
10
150.10663529480939
20
486.82165912567234
10
120.1079224141852
20
486.82165912567234
42
-0.41421356237306922
10
113.8581905640597
20
493.07139097579784
10
113.85819056405975
20
494.57149857002065
42
-0.41421356237311585
10
120.1079224141852
20
500.82123042014609
0
LWPOLYLINE
5
130
100
AcDbEntity
8
0
100
AcDbPolyline
90
8
70
1
43
0.0
10
-149.93128192788151
20
456.8229462450592
42
-0.41421356237311752
10
-156.18101377800701
20
463.07267809518464
10
-156.18101377800704
20
464.5727856894182
42
-0.41421356237308421
10
-149.9312819278851
20
470.82251753954358
10
-119.93256904728273
20
470.82251753954358
42
-0.41421356237311252
10
-113.6828371971572
20
464.5727856894182
10
-113.68283719715727
20
463.07267809518464
42
-0.41421356237307261
10
-119.93256904728271
20
456.82294624505914
0
CIRCLE
5
131
100
AcDbEntity
8
0
100
AcDbCircle
10
90.109209533611903
20
817.80741727124541
30
0
40
6.2497318501254995
210
0
220
0
230
1
0
CIRCLE
5
132
100
AcDbEntity
8
0
100
AcDbCircle
10
-200.9290938248983
20
823.807286459534
30
0
40
4.9997854801004129
210
0
220
0
230
1
0
CIRCLE
5
133
100
AcDbEntity
8
0
100
AcDbCircle
10
200.49841725163054
20
823.807286459534
30
0
40
4.9997854801004129
210
0
220
0
230
1
0
LWPOLYLINE
5
134
100
AcDbEntity
8
0
100
AcDbPolyline
90
8
70
1
43
0.0
10
173.05477411151725
20
583.81758341471823
42
-0.41421356237307505
10
179.3045059616426
20
590.06731526483293
10
180.80461355586894
20
590.06731526483293
42
-0.41421356237311335
10
187.05434540599444
20
583.81758341471459
10
187.05434540599444
20
553.81887053410514
42
-0.41421356237309837
10
180.80461355586894
20
547.56913868397953
10
179.3045059616426
20
547.56913868397942
42
-0.41421356237312501
10
173.0547741115171
20
553.81887053410503
0
CIRCLE
5
135
100
AcDbEntity
8
0
100
AcDbCircle
10
-200.929093824891
20
583.8175834147147
30
0
40
4.9997854801004129
210
0
220
0
230
1
0
CIRCLE
5
136
100
AcDbEntity
8
0
100
AcDbCircle
10
-200.929093824891
20
673.81372205651462
30
0
40
4.9997854801004129
210
0
220
0
230
1
0
CIRCLE
5
137
100
AcDbEntity
8
0
100
AcDbCircle
10
-200.9290938248983
20
733.81114781772669
30
0
40
4.9997854801004129
210
0
220
0
230
1
0
LWPOLYLINE
5
138
100
AcDbEntity
8
0
100
AcDbPolyline
90
8
70
1
43
0.0
10
-179.23000693843397
20
590.06731526483293
42
-0.41421356237308338
10
-172.98027508830856
20
583.81758341471823
10
-172.98027508830845
20
553.81887053410514
42
-0.41421356237313001
10
-179.23000693843397
20
547.56913868397942
10
-180.73011453267483
20
547.56913868397953
42
-0.41421356237309503
10
-186.97984638280033
20
553.81887053410503
10
-186.97984638280042
20
583.8175834147147
42
-0.41421356237311668
10
-180.73011453267486
20
590.06731526483293
0
LWPOLYLINE
5
139
100
AcDbEntity
8
0
100
AcDbPolyline
90
8
70
1
43
0.0
10
120.1079224141852
20
456.82294624505914
10
150.10663529480939
20
456.82294624505914
42
0.41421356237311668
10
156.35636714493489
20
463.07267809518464
10
156.35636714493489
20
464.5727856894182
42
0.41421356237308671
10
150.10663529480945
20
470.82251753954381
10
120.1079224141852
20
470.8225175395437
42
0.41421356237311169
10
113.85819056405967
20
464.5727856894182
10
113.8581905640597
20
463.07267809518464
42
0.41421356237307005
0
CIRCLE
5
140
100
AcDbEntity
8
0
100
AcDbCircle
10
-200.929093824891
20
373.82659325049792
30
0
40
4.9997854801004129
210
0
220
0
230
1
0
CIRCLE
5
141
100
AcDbEntity
8
0
100
AcDbCircle
10
-59.935143286063393
20
73.839464444470309
30
0
40
6.2497318501254995
210
0
220
0
230
1
0
CIRCLE
5
142
100
AcDbEntity
8
0
100
AcDbCircle
10
-89.883067750017048
20
817.80741727124541
30
0
40
6.2497318501254995
210
0
220
0
230
1
0
CIRCLE
5
143
100
AcDbEntity
8
0
100
AcDbCircle
10
200.49841725162332
20
583.8175834147147
30
0
40
4.9997854801004129
210
0
220
0
230
1
0
CIRCLE
5
144
100
AcDbEntity
8
0
100
AcDbCircle
10
200.49841725162332
20
853.80599934014003
30
0
40
4.9997854801004129
210
0
220
0
230
1
0
CIRCLE
5
145
100
AcDbEntity
8
0
100
AcDbCircle
10
-200.929093824891
20
613.8162962953171
30
0
40
4.9997854801004129
210
0
220
0
230
1
0
CIRCLE
5
146
100
AcDbEntity
8
0
100
AcDbCircle
10
-200.9290938248983
20
763.80986069832159
30
0
40
4.9997854801004129
210
0
220
0
230
1
0
CIRCLE
5
147
100
AcDbEntity
8
0
100
AcDbCircle
10
200.49841725163782
20
343.82788036988819
30
0
40
4.9997854801004129
210
0
220
0
230
1
0
CIRCLE
5
148
100
AcDbEntity
8
0
100
AcDbCircle
10
200.49841725162332
20
553.81887053410503
30
0
40
4.9997854801004129
210
0
220
0
230
1
0
LWPOLYLINE
5
149
100
AcDbEntity
8
0
100
AcDbPolyline
90
26
70
1
43
0.0
10
101.30793844715629
20
697.81269236099649
10
101.30793844715629
20
673.81399020638969
42
0.41421356237311752
10
107.55793844715677
20
667.56399020638946
10
133.75000000000045
20
667.56399020639151
42
0.41421356237307261
10
139.99999999999997
20
673.81399020639151
10
139.99999999999997
20
733.8108796678523
42
0.41421356237309503
10
133.74999999999997
20
740.06087966785219
10
-133.75000000000003
20
740.06087966785219
42
0.41421356237309503
10
-140.00000000000003
20
733.81087966785219
10
-140.00000000000003
20
673.81399020638912
42
0.41421356237309503
10
-133.75000000000003
20
667.56399020638912
10
-107.43337349690621
20
667.56399020638912
42
0.41421356237309503
10
-101.18337349690621
20
673.81399020638912
10
-101.18337349690623
20
697.81269236099649
42
-0.99999999999999989
10
-78.684338836454401
20
697.81269236099649
10
-78.68433883645443
20
673.81399020638912
42
0.41421356237309503
10
-72.43433883645443
20
667.56399020638912
10
-17.437234855088139
20
667.56399020638912
42
0.41421356237309515
10
-11.187234855088137
20
673.81399020638912
10
-11.187234855120876
20
697.81269236099649
42
-0.99999999999999989
10
11.311799805367304
20
697.81269236099649
10
11.311799805367295
20
673.81399020638912
42
0.41421356237309503
10
17.561799805367293
20
667.56399020638912
10
72.558903786719057
20
667.56399020638912
42
0.41421356237309503
10
78.808903786719057
20
673.81399020638912
10
78.808903786719043
20
697.81269236099615
42
-0.99999999999999989
0
LWPOLYLINE
5
150
100
AcDbEntity
8
0
100
AcDbPolyline
90
8
70
1
43
0.0
10
-113.68283719715723
20
493.07139097579795
10
-113.68283719715727
20
494.57149857002065
42
0.41421356237311668
10
-119.93256904728273
20
500.82123042014615
10
-149.9312819278851
20
500.82123042014609
42
0.41421356237307339
10
-156.18101377801435
20
494.57149857002065
10
-156.18101377801435
20
493.07139097579784
42
0.41421356237312168
10
-149.9312819278851
20
486.82165912567245
10
-119.93256904728271
20
486.82165912567245
42
0.41421356237306256
0
CIRCLE
5
151
100
AcDbEntity
8
0
100
AcDbCircle
10
-200.9290938248983
20
853.80599934014003
30
0
40
4.9997854801004129
210
0
220
0
230
1
0
CIRCLE
5
152
100
AcDbEntity
8
0
100
AcDbCircle
10
200.49841725162332
20
613.8162962953171
30
0
40
4.9997854801004129
210
0
220
0
230
1
0
CIRCLE
5
153
100
AcDbEntity
8
0
100
AcDbCircle
10
200.49841725163782
20
193.83431596687629
30
0
40
4.9997854801004129
210
0
220
0
230
1
0
CIRCLE
5
154
100
AcDbEntity
8
0
100
AcDbCircle
10
30.060995355743792
20
343.82788036988819
30
0
40
6.2497318501254995
210
0
220
0
230
1
0
CIRCLE
5
155
100
AcDbEntity
8
0
100
AcDbCircle
10
120.05713399755462
20
583.8175834147147
30
0
40
6.2497318501254995
210
0
220
0
230
1
0
CIRCLE
5
156
100
AcDbEntity
8
0
100
AcDbCircle
10
60.059708236349834
20
403.8253061311039
30
0
40
6.2497318501254995
210
0
220
0
230
1
0
CIRCLE
5
157
100
AcDbEntity
8
0
100
AcDbCircle
10
60.059708236349834
20
433.82401901169544
30
0
40
6.2497318501254995
210
0
220
0
230
1
0
CIRCLE
5
158
100
AcDbEntity
8
0
100
AcDbCircle
10
0.062282475123214276
20
523.8201576535098
30
0
40
6.2497318501254995
210
0
220
0
230
1
0
CIRCLE
5
159
100
AcDbEntity
8
0
100
AcDbCircle
10
-29.936430405475548
20
433.82401901169544
30
0
40
6.2497318501254995
210
0
220
0
230
1
0
CIRCLE
5
160
100
AcDbEntity
8
0
100
AcDbCircle
10
0.062282475123214276
20
403.8253061311039
30
0
40
6.2497318501254995
210
0
220
0
230
1
0
CIRCLE
5
161
100
AcDbEntity
8
0
100
AcDbCircle
10
150.05584687815701
20
373.82659325049792
30
0
40
6.2497318501254995
210
0
220
0
230
1
0
CIRCLE
5
162
100
AcDbEntity
8
0
100
AcDbCircle
10
150.05584687815701
20
433.82401901169544
30
0
40
6.2497318501254995
210
0
220
0
230
1
0
CIRCLE
5
163
100
AcDbEntity
8
0
100
AcDbCircle
10
150.05584687815701
20
643.81500917591211
30
0
40
6.2497318501254995
210
0
220
0
230
1
0
CIRCLE
5
164
100
AcDbEntity
8
0
100
AcDbCircle
10
-59.935143286063393
20
643.81500917591211
30
0
40
6.2497318501254995
210
0
220
0
230
1
0
CIRCLE
5
165
100
AcDbEntity
8
0
100
AcDbCircle
10
-29.936430405479186
20
763.80986069832159
30
0
40
6.2497318501254995
210
0
220
0
230
1
0
CIRCLE
5
166
100
AcDbEntity
8
0
100
AcDbCircle
10
120.05713399755462
20
433.82401901169544
30
0
40
6.2497318501254995
210
0
220
0
230
1
0
CIRCLE
5
167
100
AcDbEntity
8
0
100
AcDbCircle
10
30.060995355743792
20
403.8253061311039
30
0
40
6.2497318501254995
210
0
220
0
230
1
0
CIRCLE
5
168
100
AcDbEntity
8
0
100
AcDbCircle
10
-179.92999480846933
20
343.82788036988819
30
0
40
6.2497318501254995
210
0
220
0
230
1
0
CIRCLE
5
169
100
AcDbEntity
8
0
100
AcDbCircle
10
90.05842111693039
20
343.82788036988819
30
0
40
6.2497318501254995
210
0
220
0
230
1
0
CIRCLE
5
170
100
AcDbEntity
8
0
100
AcDbCircle
10
-179.92999480846933
20
373.82659325049792
30
0
40
6.2497318501254995
210
0
220
0
230
1
0
CIRCLE
5
171
100
AcDbEntity
8
0
100
AcDbCircle
10
60.059708236349834
20
463.822731892305
30
0
40
6.2497318501254995
210
0
220
0
230
1
0
CIRCLE
5
172
100
AcDbEntity
8
0
100
AcDbCircle
10
120.05713399755462
20
343.82788036988819
30
0
40
6.2497318501254995
210
0
220
0
230
1
0
CIRCLE
5
173
100
AcDbEntity
8
0
100
AcDbCircle
10
30.060995355743792
20
373.82659325049792
30
0
40
6.2497318501254995
210
0
220
0
230
1
0
CIRCLE
5
174
100
AcDbEntity
8
0
100
AcDbCircle
10
150.05584687815701
20
403.8253061311039
30
0
40
6.2497318501254995
210
0
220
0
230
1
0
CIRCLE
5
175
100
AcDbEntity
8
0
100
AcDbCircle
10
30.060995355743792
20
613.8162962953171
30
0
40
6.2497318501254995
210
0
220
0
230
1
0
CIRCLE
5
176
100
AcDbEntity
8
0
100
AcDbCircle
10
-29.936430405475548
20
373.82659325049792
30
0
40
6.2497318501254995
210
0
220
0
230
1
0
CIRCLE
5
177
100
AcDbEntity
8
0
100
AcDbCircle
10
-89.933856166662167
20
373.82659325049792
30
0
40
6.2497318501254995
210
0
220
0
230
1
0
CIRCLE
5
178
100
AcDbEntity
8
0
100
AcDbCircle
10
-119.93256904728271
20
403.8253061311039
30
0
40
6.2497318501254995
210
0
220
0
230
1
0
CIRCLE
5
179
100
AcDbEntity
8
0
100
AcDbCircle
10
-149.9312819278851
20
373.82659325049792
30
0
40
6.2497318501254995
210
0
220
0
230
1
0
CIRCLE
5
180
100
AcDbEntity
8
0
100
AcDbCircle
10
-89.933856166662167
20
463.822731892305
30
0
40
6.2497318501254995
210
0
220
0
230
1
0
CIRCLE
5
181
100
AcDbEntity
8
0
100
AcDbCircle
10
-149.9312819278851
20
403.8253061311039
30
0
40
6.2497318501254995
210
0
220
0
230
1
0
CIRCLE
5
182
100
AcDbEntity
8
0
100
AcDbCircle
10
-149.9312819278851
20
643.81500917591211
30
0
40
6.2497318501254995
210
0
220
0
230
1
0
CIRCLE
5
183
100
AcDbEntity
8
0
100
AcDbCircle
10
180.05455975873761
20
703.81243493712429
30
0
40
6.2497318501254995
210
0
220
0
230
1
0
CIRCLE
5
184
100
AcDbEntity
8
0
100
AcDbCircle
10
150.05584687815701
20
283.83045460869431
30
0
40
6.2497318501254995
210
0
220
0
230
1
0
CIRCLE
5
185
100
AcDbEntity
8
0
100
AcDbCircle
10
180.05455975873761
20
673.81372205651462
30
0
40
6.2497318501254995
210
0
220
0
230
1
0
CIRCLE
5
186
100
AcDbEntity
8
0
100
AcDbCircle
10
90.05842111693039
20
463.822731892305
30
0
40
6.2497318501254995
210
0
220
0
230
1
0
CIRCLE
5
187
100
AcDbEntity
8
0
100
AcDbCircle
10
90.05842111693039
20
523.8201576535098
30
0
40
6.2497318501254995
210
0
220
0
230
1
0
CIRCLE
5
188
100
AcDbEntity
8
0
100
AcDbCircle
10
120.05713399755462
20
373.82659325049792
30
0
40
6.2497318501254995
210
0
220
0
230
1
0
LWPOLYLINE
5
189
100
AcDbEntity
8
0
100
AcDbPolyline
90
4
70
1
43
0.0
10
-195.02993699000015
20
517.57042580337702
10
-179.92999480846933
20
517.57042580337702
42
0.99999999999999989
10
-179.92999480846942
20
530.06988950363893
10
-195.02993699000027
20
530.06988950363893
42
0.99999999999999989
0
CIRCLE
5
190
100
AcDbEntity
8
0
100
AcDbCircle
10
-29.936430405475548
20
643.81500917591211
30
0
40
6.2497318501254995
210
0
220
0
230
1
0
CIRCLE
5
191
100
AcDbEntity
8
0
100
AcDbCircle
10
-119.93256904728271
20
613.8162962953171
30
0
40
6.2497318501254995
210
0
220
0
230
1
0
CIRCLE
5
192
100
AcDbEntity
8
0
100
AcDbCircle
10
-29.936430405475548
20
583.8175834147147
30
0
40
6.2497318501254995
210
0
220
0
230
1
0
CIRCLE
5
193
100
AcDbEntity
8
0
100
AcDbCircle
10
120.05713399755462
20
763.80986069832159
30
0
40
6.2497318501254995
210
0
220
0
230
1
0
CIRCLE
5
194
100
AcDbEntity
8
0
100
AcDbCircle
10
-179.92999480846933
20
673.81372205651462
30
0
40
6.2497318501254995
210
0
220
0
230
1
0
CIRCLE
5
195
100
AcDbEntity
8
0
100
AcDbCircle
10
120.05713399755462
20
613.8162962953171
30
0
40
6.2497318501254995
210
0
220
0
230
1
0
CIRCLE
5
196
100
AcDbEntity
8
0
100
AcDbCircle
10
180.05455975873033
20
733.81114781772669
30
0
40
6.2497318501254995
210
0
220
0
230
1
0
CIRCLE
5
197
100
AcDbEntity
8
0
100
AcDbCircle
10
-119.93256904728271
20
643.81500917591211
30
0
40
6.2497318501254995
210
0
220
0
230
1
0
CIRCLE
5
198
100
AcDbEntity
8
0
100
AcDbCircle
10
0.062282475123214276
20
763.80986069832159
30
0
40
6.2497318501254995
210
0
220
0
230
1
0
CIRCLE
5
199
100
AcDbEntity
8
0
100
AcDbCircle
10
60.059708236349834
20
643.81500917591211
30
0
40
6.2497318501254995
210
0
220
0
230
1
0
CIRCLE
5
200
100
AcDbEntity
8
0
100
AcDbCircle
10
-119.93256904728271
20
763.80986069832159
30
0
40
6.2497318501254995
210
0
220
0
230
1
0
CIRCLE
5
201
100
AcDbEntity
8
0
100
AcDbCircle
10
-179.92999480847664
20
733.81114781772669
30
0
40
6.2497318501254995
210
0
220
0
230
1
0
CIRCLE
5
202
100
AcDbEntity
8
0
100
AcDbCircle
10
-119.93256904728271
20
583.8175834147147
30
0
40
6.2497318501254995
210
0
220
0
230
1
0
CIRCLE
5
203
100
AcDbEntity
8
0
100
AcDbCircle
10
0.062282475123214276
20
643.81500917591211
30
0
40
6.2497318501254995
210
0
220
0
230
1
0
CIRCLE
5
204
100
AcDbEntity
8
0
100
AcDbCircle
10
-179.92999480846933
20
703.81243493712429
30
0
40
6.2497318501254995
210
0
220
0
230
1
0
CIRCLE
5
205
100
AcDbEntity
8
0
100
AcDbCircle
10
60.059708236349834
20
583.8175834147147
30
0
40
6.2497318501254995
210
0
220
0
230
1
0
CIRCLE
5
206
100
AcDbEntity
8
0
100
AcDbCircle
10
-59.935143286070662
20
763.80986069832159
30
0
40
6.2497318501254995
210
0
220
0
230
1
0
CIRCLE
5
207
100
AcDbEntity
8
0
100
AcDbCircle
10
60.059708236349834
20
373.82659325049792
30
0
40
6.2497318501254995
210
0
220
0
230
1
0
CIRCLE
5
208
100
AcDbEntity
8
0
100
AcDbCircle
10
120.05713399755462
20
403.8253061311039
30
0
40
6.2497318501254995
210
0
220
0
230
1
0
CIRCLE
5
209
100
AcDbEntity
8
0
100
AcDbCircle
10
120.05713399755462
20
313.82916748928579
30
0
40
6.2497318501254995
210
0
220
0
230
1
0
CIRCLE
5
210
100
AcDbEntity
8
0
100
AcDbCircle
10
90.05842111693039
20
433.82401901169544
30
0
40
6.2497318501254995
210
0
220
0
230
1
0
CIRCLE
5
211
100
AcDbEntity
8
0
100
AcDbCircle
10
0.062282475123214276
20
463.822731892305
30
0
40
6.2497318501254995
210
0
220
0
230
1
0
CIRCLE
5
212
100
AcDbEntity
8
0
100
AcDbCircle
10
-59.935143286063393
20
373.82659325049792
30
0
40
6.2497318501254995
210
0
220
0
230
1
0
CIRCLE
5
213
100
AcDbEntity
8
0
100
AcDbCircle
10
-89.933856166662167
20
433.82401901169544
30
0
40
6.2497318501254995
210
0
220
0
230
1
0
CIRCLE
5
214
100
AcDbEntity
8
0
100
AcDbCircle
10
30.060995355743792
20
433.82401901169544
30
0
40
6.2497318501254995
210
0
220
0
230
1
0
CIRCLE
5
215
100
AcDbEntity
8
0
100
AcDbCircle
10
-29.936430405475548
20
103.83817732506905
30
0
40
6.2497318501254995
210
0
220
0
230
1
0
CIRCLE
5
216
100
AcDbEntity
8
0
100
AcDbCircle
10
-89.933856166662167
20
73.839464444470309
30
0
40
6.2497318501254995
210
0
220
0
230
1
0
CIRCLE
5
217
100
AcDbEntity
8
0
100
AcDbCircle
10
120.05713399755462
20
193.83431596687629
30
0
40
6.2497318501254995
210
0
220
0
230
1
0
CIRCLE
5
218
100
AcDbEntity
8
0
100
AcDbCircle
10
30.060995355743792
20
223.83302884747866
30
0
40
6.2497318501254995
210
0
220
0
230
1
0
CIRCLE
5
219
100
AcDbEntity
8
0
100
AcDbCircle
10
-29.936430405475548
20
223.83302884747866
30
0
40
6.2497318501254995
210
0
220
0
230
1
0
CIRCLE
5
220
100
AcDbEntity
8
0
100
AcDbCircle
10
60.059708236349834
20
103.83817732506905
30
0
40
6.2497318501254995
210
0
220
0
230
1
0
CIRCLE
5
221
100
AcDbEntity
8
0
100
AcDbCircle
10
-149.9312819278851
20
223.83302884747866
30
0
40
6.2497318501254995
210
0
220
0
230
1
0
CIRCLE
5
222
100
AcDbEntity
8
0
100
AcDbCircle
10
-119.93256904728271
20
193.83431596687629
30
0
40
6.2497318501254995
210
0
220
0
230
1
0
CIRCLE
5
223
100
AcDbEntity
8
0
100
AcDbCircle
10
-89.933856166662167
20
253.83174172808839
30
0
40
6.2497318501254995
210
0
220
0
230
1
0
CIRCLE
5
224
100
AcDbEntity
8
0
100
AcDbCircle
10
90.05842111693039
20
73.839464444470309
30
0
40
6.2497318501254995
210
0
220
0
230
1
0
CIRCLE
5
225
100
AcDbEntity
8
0
100
AcDbCircle
10
-59.935143286063393
20
313.82916748928579
30
0
40
6.2497318501254995
210
0
220
0
230
1
0
CIRCLE
5
226
100
AcDbEntity
8
0
100
AcDbCircle
10
30.060995355743792
20
253.83174172808839
30
0
40
6.2497318501254995
210
0
220
0
230
1
0
CIRCLE
5
227
100
AcDbEntity
8
0
100
AcDbCircle
10
0.062282475123214276
20
223.83302884747866
30
0
40
6.2497318501254995
210
0
220
0
230
1
0
CIRCLE
5
228
100
AcDbEntity
8
0
100
AcDbCircle
10
90.05842111693039
20
283.83045460869431
30
0
40
6.2497318501254995
210
0
220
0
230
1
0
CIRCLE
5
229
100
AcDbEntity
8
0
100
AcDbCircle
10
-119.93256904728271
20
253.83174172808839
30
0
40
6.2497318501254995
210
0
220
0
230
1
0
CIRCLE
5
230
100
AcDbEntity
8
0
100
AcDbCircle
10
-149.9312819278851
20
193.83431596687629
30
0
40
6.2497318501254995
210
0
220
0
230
1
0
CIRCLE
5
231
100
AcDbEntity
8
0
100
AcDbCircle
10
-119.93256904728271
20
223.83302884747866
30
0
40
6.2497318501254995
210
0
220
0
230
1
0
CIRCLE
5
232
100
AcDbEntity
8
0
100
AcDbCircle
10
60.059708236349834
20
223.83302884747866
30
0
40
6.2497318501254995
210
0
220
0
230
1
0
CIRCLE
5
233
100
AcDbEntity
8
0
100
AcDbCircle
10
-119.93256904728271
20
313.82916748928579
30
0
40
6.2497318501254995
210
0
220
0
230
1
0
CIRCLE
5
234
100
AcDbEntity
8
0
100
AcDbCircle
10
180.05455975873761
20
193.83431596687629
30
0
40
6.2497318501254995
210
0
220
0
230
1
0
CIRCLE
5
235
100
AcDbEntity
8
0
100
AcDbCircle
10
0.062282475123214276
20
193.83431596687629
30
0
40
6.2497318501254995
210
0
220
0
230
1
0
CIRCLE
5
236
100
AcDbEntity
8
0
100
AcDbCircle
10
-29.936430405475548
20
313.82916748928579
30
0
40
6.2497318501254995
210
0
220
0
230
1
0
CIRCLE
5
237
100
AcDbEntity
8
0
100
AcDbCircle
10
-149.9312819278851
20
283.83045460869431
30
0
40
6.2497318501254995
210
0
220
0
230
1
0
CIRCLE
5
238
100
AcDbEntity
8
0
100
AcDbCircle
10
-59.935143286063393
20
283.83045460869431
30
0
40
6.2497318501254995
210
0
220
0
230
1
0
CIRCLE
5
239
100
AcDbEntity
8
0
100
AcDbCircle
10
30.060995355743792
20
73.839464444470309
30
0
40
6.2497318501254995
210
0
220
0
230
1
0
CIRCLE
5
240
100
AcDbEntity
8
0
100
AcDbCircle
10
-119.93256904728271
20
343.82788036988819
30
0
40
6.2497318501254995
210
0
220
0
230
1
0
LWPOLYLINE
5
241
100
AcDbEntity
8
0
100
AcDbPolyline
90
4
70
1
43
0.0
10
-179.92999480846942
20
170.08533493640664
42
-0.99999999999999989
10
-179.92999480846933
20
157.58587123615925
10
-195.02993699000024
20
157.58587123615922
42
-0.99999999999999989
10
-195.02993699000024
20
170.08533493640667
0
LWPOLYLINE
5
242
100
AcDbEntity
8
0
100
AcDbPolyline
90
4
70
1
43
0.0
10
180.01477825410541
20
157.58587123615925
42
-0.99999999999999989
10
180.01477825410532
20
170.08533493640664
10
195.11472043563612
20
170.08533493640667
42
-0.99999999999999989
10
195.11472043563612
20
157.58587123615922
0
CIRCLE
5
243
100
AcDbEntity
8
0
100
AcDbCircle
10
-29.936430405475548
20
343.82788036988819
30
0
40
6.2497318501254995
210
0
220
0
230
1
0
CIRCLE
5
244
100
AcDbEntity
8
0
100
AcDbCircle
10
60.059708236349834
20
313.82916748928579
30
0
40
6.2497318501254995
210
0
220
0
230
1
0
CIRCLE
5
245
100
AcDbEntity
8
0
100
AcDbCircle
10
120.05713399755462
20
223.83302884747866
30
0
40
6.2497318501254995
210
0
220
0
230
1
0
CIRCLE
5
246
100
AcDbEntity
8
0
100
AcDbCircle
10
60.059708236349834
20
283.83045460869431
30
0
40
6.2497318501254995
210
0
220
0
230
1
0
CIRCLE
5
247
100
AcDbEntity
8
0
100
AcDbCircle
10
90.05842111693039
20
253.83174172808839
30
0
40
6.2497318501254995
210
0
220
0
230
1
0
CIRCLE
5
248
100
AcDbEntity
8
0
100
AcDbCircle
10
150.05584687815701
20
193.83431596687629
30
0
40
6.2497318501254995
210
0
220
0
230
1
0
CIRCLE
5
249
100
AcDbEntity
8
0
100
AcDbCircle
10
-59.935143286063393
20
193.83431596687629
30
0
40
6.2497318501254995
210
0
220
0
230
1
0
CIRCLE
5
250
100
AcDbEntity
8
0
100
AcDbCircle
10
60.059708236349834
20
343.82788036988819
30
0
40
6.2497318501254995
210
0
220
0
230
1
0
CIRCLE
5
251
100
AcDbEntity
8
0
100
AcDbCircle
10
-89.933856166662167
20
223.83302884747866
30
0
40
6.2497318501254995
210
0
220
0
230
1
0
CIRCLE
5
252
100
AcDbEntity
8
0
100
AcDbCircle
10
90.05842111693039
20
313.82916748928579
30
0
40
6.2497318501254995
210
0
220
0
230
1
0
CIRCLE
5
253
100
AcDbEntity
8
0
100
AcDbCircle
10
-59.935143286063393
20
253.83174172808839
30
0
40
6.2497318501254995
210
0
220
0
230
1
0
CIRCLE
5
254
100
AcDbEntity
8
0
100
AcDbCircle
10
120.05713399755462
20
253.83174172808839
30
0
40
6.2497318501254995
210
0
220
0
230
1
0
CIRCLE
5
255
100
AcDbEntity
8
0
100
AcDbCircle
10
-89.933856166662167
20
403.8253061311039
30
0
40
6.2497318501254995
210
0
220
0
230
1
0
CIRCLE
5
256
100
AcDbEntity
8
0
100
AcDbCircle
10
90.05842111693039
20
223.83302884747866
30
0
40
6.2497318501254995
210
0
220
0
230
1
0
CIRCLE
5
257
100
AcDbEntity
8
0
100
AcDbCircle
10
180.05455975873761
20
343.82788036988819
30
0
40
6.2497318501254995
210
0
220
0
230
1
0
CIRCLE
5
258
100
AcDbEntity
8
0
100
AcDbCircle
10
0.062282475123214276
20
283.83045460869431
30
0
40
6.2497318501254995
210
0
220
0
230
1
0
CIRCLE
5
259
100
AcDbEntity
8
0
100
AcDbCircle
10
30.060995355743792
20
283.83045460869431
30
0
40
6.2497318501254995
210
0
220
0
230
1
0
CIRCLE
5
260
100
AcDbEntity
8
0
100
AcDbCircle
10
0.062282475123214276
20
373.82659325049792
30
0
40
6.2497318501254995
210
0
220
0
230
1
0
CIRCLE
5
261
100
AcDbEntity
8
0
100
AcDbCircle
10
30.060995355743792
20
193.83431596687629
30
0
40
6.2497318501254995
210
0
220
0
230
1
0
CIRCLE
5
262
100
AcDbEntity
8
0
100
AcDbCircle
10
-89.933856166662167
20
313.82916748928579
30
0
40
6.2497318501254995
210
0
220
0
230
1
0
CIRCLE
5
263
100
AcDbEntity
8
0
100
AcDbCircle
10
30.060995355743792
20
463.822731892305
30
0
40
6.2497318501254995
210
0
220
0
230
1
0
CIRCLE
5
264
100
AcDbEntity
8
0
100
AcDbCircle
10
-29.936430405475548
20
253.83174172808839
30
0
40
6.2497318501254995
210
0
220
0
230
1
0
CIRCLE
5
265
100
AcDbEntity
8
0
100
AcDbCircle
10
-119.93256904728271
20
373.82659325049792
30
0
40
6.2497318501254995
210
0
220
0
230
1
0
CIRCLE
5
266
100
AcDbEntity
8
0
100
AcDbCircle
10
0.062282475123214276
20
253.83174172808839
30
0
40
6.2497318501254995
210
0
220
0
230
1
0
CIRCLE
5
267
100
AcDbEntity
8
0
100
AcDbCircle
10
-89.933856166662167
20
523.8201576535098
30
0
40
6.2497318501254995
210
0
220
0
230
1
0
CIRCLE
5
268
100
AcDbEntity
8
0
100
AcDbCircle
10
150.05584687815701
20
313.82916748928579
30
0
40
6.2497318501254995
210
0
220
0
230
1
0
CIRCLE
5
269
100
AcDbEntity
8
0
100
AcDbCircle
10
60.059708236349834
20
73.839464444470309
30
0
40
6.2497318501254995
210
0
220
0
230
1
0
CIRCLE
5
270
100
AcDbEntity
8
0
100
AcDbCircle
10
-119.93256904728271
20
433.82401901169544
30
0
40
6.2497318501254995
210
0
220
0
230
1
0
CIRCLE
5
271
100
AcDbEntity
8
0
100
AcDbCircle
10
-29.936430405475548
20
403.8253061311039
30
0
40
6.2497318501254995
210
0
220
0
230
1
0
CIRCLE
5
272
100
AcDbEntity
8
0
100
AcDbCircle
10
-59.935143286063393
20
433.82401901169544
30
0
40
6.2497318501254995
210
0
220
0
230
1
0
CIRCLE
5
273
100
AcDbEntity
8
0
100
AcDbCircle
10
-29.936430405475548
20
463.822731892305
30
0
40
6.2497318501254995
210
0
220
0
230
1
0
CIRCLE
5
274
100
AcDbEntity
8
0
100
AcDbCircle
10
-59.935143286063393
20
403.8253061311039
30
0
40
6.2497318501254995
210
0
220
0
230
1
0
CIRCLE
5
275
100
AcDbEntity
8
0
100
AcDbCircle
10
120.05713399755462
20
283.83045460869431
30
0
40
6.2497318501254995
210
0
220
0
230
1
0
CIRCLE
5
276
100
AcDbEntity
8
0
100
AcDbCircle
10
-149.9312819278851
20
343.82788036988819
30
0
40
6.2497318501254995
210
0
220
0
230
1
0
CIRCLE
5
277
100
AcDbEntity
8
0
100
AcDbCircle
10
90.05842111693039
20
373.82659325049792
30
0
40
6.2497318501254995
210
0
220
0
230
1
0
CIRCLE
5
278
100
AcDbEntity
8
0
100
AcDbCircle
10
-59.935143286063393
20
463.822731892305
30
0
40
6.2497318501254995
210
0
220
0
230
1
0
CIRCLE
5
279
100
AcDbEntity
8
0
100
AcDbCircle
10
30.060995355743792
20
103.83817732506905
30
0
40
6.2497318501254995
210
0
220
0
230
1
0
CIRCLE
5
280
100
AcDbEntity
8
0
100
AcDbCircle
10
-29.936430405475548
20
73.839464444470309
30
0
40
6.2497318501254995
210
0
220
0
230
1
0
CIRCLE
5
281
100
AcDbEntity
8
0
100
AcDbCircle
10
-59.935143286063393
20
103.83817732506905
30
0
40
6.2497318501254995
210
0
220
0
230
1
0
CIRCLE
5
282
100
AcDbEntity
8
0
100
AcDbCircle
10
-149.9312819278851
20
613.8162962953171
30
0
40
6.2497318501254995
210
0
220
0
230
1
0
CIRCLE
5
283
100
AcDbEntity
8
0
100
AcDbCircle
10
60.059708236342573
20
763.80986069832159
30
0
40
6.2497318501254995
210
0
220
0
230
1
0
CIRCLE
5
284
100
AcDbEntity
8
0
100
AcDbCircle
10
30.060995355743792
20
493.82144477290745
30
0
40
6.2497318501254995
210
0
220
0
230
1
0
CIRCLE
5
285
100
AcDbEntity
8
0
100
AcDbCircle
10
90.05842111693039
20
613.8162962953171
30
0
40
6.2497318501254995
210
0
220
0
230
1
0
CIRCLE
5
286
100
AcDbEntity
8
0
100
AcDbCircle
10
-59.935143286063393
20
613.8162962953171
30
0
40
6.2497318501254995
210
0
220
0
230
1
0
CIRCLE
5
287
100
AcDbEntity
8
0
100
AcDbCircle
10
-59.935143286063393
20
583.8175834147147
30
0
40
6.2497318501254995
210
0
220
0
230
1
0
CIRCLE
5
288
100
AcDbEntity
8
0
100
AcDbCircle
10
180.05455975873033
20
823.807286459534
30
0
40
6.2497318501254995
210
0
220
0
230
1
0
CIRCLE
5
289
100
AcDbEntity
8
0
100
AcDbCircle
10
-29.936430405475548
20
613.8162962953171
30
0
40
6.2497318501254995
210
0
220
0
230
1
0
CIRCLE
5
290
100
AcDbEntity
8
0
100
AcDbCircle
10
-179.92999480847664
20
823.807286459534
30
0
40
6.2497318501254995
210
0
220
0
230
1
0
CIRCLE
5
291
100
AcDbEntity
8
0
100
AcDbCircle
10
-59.935143286063393
20
493.82144477290745
30
0
40
6.2497318501254995
210
0
220
0
230
1
0
CIRCLE
5
292
100
AcDbEntity
8
0
100
AcDbCircle
10
-29.936430405475548
20
493.82144477290745
30
0
40
6.2497318501254995
210
0
220
0
230
1
0
CIRCLE
5
293
100
AcDbEntity
8
0
100
AcDbCircle
10
-179.92999480847664
20
853.8059993401364
30
0
40
6.2497318501254995
210
0
220
0
230
1
0
CIRCLE
5
294
100
AcDbEntity
8
0
100
AcDbCircle
10
-89.933856166662167
20
613.8162962953171
30
0
40
6.2497318501254995
210
0
220
0
230
1
0
CIRCLE
5
295
100
AcDbEntity
8
0
100
AcDbCircle
10
-89.933856166662167
20
643.81500917591211
30
0
40
6.2497318501254995
210
0
220
0
230
1
0
CIRCLE
5
296
100
AcDbEntity
8
0
100
AcDbCircle
10
-89.933856166662167
20
583.8175834147147
30
0
40
6.2497318501254995
210
0
220
0
230
1
0
CIRCLE
5
297
100
AcDbEntity
8
0
100
AcDbCircle
10
90.05842111693039
20
763.80986069832159
30
0
40
6.2497318501254995
210
0
220
0
230
1
0
CIRCLE
5
298
100
AcDbEntity
8
0
100
AcDbCircle
10
0.062282475123214276
20
613.8162962953171
30
0
40
6.2497318501254995
210
0
220
0
230
1
0
LWPOLYLINE
5
299
100
AcDbEntity
8
0
100
AcDbPolyline
90
4
70
1
43
0.0
10
195.11472043563612
20
530.06988950363893
42
-0.99999999999999989
10
195.11472043563603
20
517.57042580337702
10
180.01477825410532
20
517.57042580337702
42
-0.99999999999999989
10
180.01477825410541
20
530.06988950363893
0
CIRCLE
5
300
100
AcDbEntity
8
0
100
AcDbCircle
10
90.05842111693039
20
643.81500917591211
30
0
40
6.2497318501254995
210
0
220
0
230
1
0
CIRCLE
5
301
100
AcDbEntity
8
0
100
AcDbCircle
10
150.05584687815701
20
583.8175834147147
30
0
40
6.2497318501254995
210
0
220
0
230
1
0
CIRCLE
5
302
100
AcDbEntity
8
0
100
AcDbCircle
10
0.062282475123214276
20
583.8175834147147
30
0
40
6.2497318501254995
210
0
220
0
230
1
0
CIRCLE
5
303
100
AcDbEntity
8
0
100
AcDbCircle
10
60.059708236349834
20
613.8162962953171
30
0
40
6.2497318501254995
210
0
220
0
230
1
0
CIRCLE
5
304
100
AcDbEntity
8
0
100
AcDbCircle
10
30.060995355743792
20
643.81500917591211
30
0
40
6.2497318501254995
210
0
220
0
230
1
0
CIRCLE
5
305
100
AcDbEntity
8
0
100
AcDbCircle
10
-149.9312819278851
20
583.8175834147147
30
0
40
6.2497318501254995
210
0
220
0
230
1
0
CIRCLE
5
306
100
AcDbEntity
8
0
100
AcDbCircle
10
30.060995355721978
20
763.80986069832159
30
0
40
6.2497318501254995
210
0
220
0
230
1
0
CIRCLE
5
307
100
AcDbEntity
8
0
100
AcDbCircle
10
90.05842111693039
20
583.8175834147147
30
0
40
6.2497318501254995
210
0
220
0
230
1
0
CIRCLE
5
308
100
AcDbEntity
8
0
100
AcDbCircle
10
-149.9312819278851
20
763.80986069832159
30
0
40
6.2497318501254995
210
0
220
0
230
1
0
CIRCLE
5
309
100
AcDbEntity
8
0
100
AcDbCircle
10
-89.933856166683967
20
763.80986069832159
30
0
40
6.2497318501254995
210
0
220
0
230
1
0
CIRCLE
5
310
100
AcDbEntity
8
0
100
AcDbCircle
10
150.05584687815701
20
613.8162962953171
30
0
40
6.2497318501254995
210
0
220
0
230
1
0
CIRCLE
5
311
100
AcDbEntity
8
0
100
AcDbCircle
10
120.05713399755462
20
643.81500917591211
30
0
40
6.2497318501254995
210
0
220
0
230
1
0
CIRCLE
5
312
100
AcDbEntity
8
0
100
AcDbCircle
10
30.060995355743792
20
583.8175834147147
30
0
40
6.2497318501254995
210
0
220
0
230
1
0
CIRCLE
5
313
100
AcDbEntity
8
0
100
AcDbCircle
10
60.059708236349834
20
493.82144477290745
30
0
40
6.2497318501254995
210
0
220
0
230
1
0
CIRCLE
5
314
100
AcDbEntity
8
0
100
AcDbCircle
10
-89.933856166680329
20
697.81269236099649
30
0
40
6.2497318501254995
210
0
220
0
230
1
0
LWPOLYLINE
5
315
100
AcDbEntity
8
0
100
AcDbPolyline
90
4
70
1
43
0.0
10
-179.94347167022931
20
886.22167977204163
10
-195.04341385176008
20
886.22167977204163
42
0.99999999999999989
10
-195.04341385176008
20
873.72221607179063
10
-179.94347167022931
20
873.72221607179063
42
0.99999999999999989
0
CIRCLE
5
316
100
AcDbEntity
8
0
100
AcDbCircle
10
90.058421116937666
20
697.81269236099638
30
0
40
6.2497318501254995
210
0
220
0
230
1
0
CIRCLE
5
317
100
AcDbEntity
8
0
100
AcDbCircle
10
0.11307089180472296
20
817.80741727124541
30
0
40
6.2497318501254995
210
0
220
0
230
1
0
LWPOLYLINE
5
318
100
AcDbEntity
8
0
100
AcDbPolyline
90
4
70
1
43
0.0
10
180.0013013923635
20
873.72221607179449
42
-0.99999999999999989
10
180.0013013923635
20
886.22167977204549
10
195.10124357385806
20
886.22167977204549
42
-0.99999999999999989
10
195.10124357385806
20
873.72221607179449
0
CIRCLE
5
319
100
AcDbEntity
8
0
100
AcDbCircle
10
-29.936430405475548
20
193.83431596687629
30
0
40
6.2497318501254995
210
0
220
0
230
1
0
CIRCLE
5
320
100
AcDbEntity
8
0
100
AcDbCircle
10
-149.9312819278851
20
253.83174172808839
30
0
40
6.2497318501254995
210
0
220
0
230
1
0
CIRCLE
5
321
100
AcDbEntity
8
0
100
AcDbCircle
10
0.062282475123214276
20
313.82916748928579
30
0
40
6.2497318501254995
210
0
220
0
230
1
0
CIRCLE
5
322
100
AcDbEntity
8
0
100
AcDbCircle
10
-59.935143286063393
20
343.82788036988819
30
0
40
6.2497318501254995
210
0
220
0
230
1
0
CIRCLE
5
323
100
AcDbEntity
8
0
100
AcDbCircle
10
150.05584687815701
20
223.83302884747866
30
0
40
6.2497318501254995
210
0
220
0
230
1
0
CIRCLE
5
324
100
AcDbEntity
8
0
100
AcDbCircle
10
0.062282475123214276
20
433.82401901169544
30
0
40
6.2497318501254995
210
0
220
0
230
1
0
CIRCLE
5
325
100
AcDbEntity
8
0
100
AcDbCircle
10
-179.92999480846933
20
193.83431596687629
30
0
40
6.2497318501254995
210
0
220
0
230
1
0
CIRCLE
5
326
100
AcDbEntity
8
0
100
AcDbCircle
10
90.05842111693039
20
403.8253061311039
30
0
40
6.2497318501254995
210
0
220
0
230
1
0
CIRCLE
5
327
100
AcDbEntity
8
0
100
AcDbCircle
10
150.05584687815701
20
253.83174172808839
30
0
40
6.2497318501254995
210
0
220
0
230
1
0
CIRCLE
5
328
100
AcDbEntity
8
0
100
AcDbCircle
10
-59.935143286063393
20
223.83302884747866
30
0
40
6.2497318501254995
210
0
220
0
230
1
0
CIRCLE
5
329
100
AcDbEntity
8
0
100
AcDbCircle
10
-149.9312819278851
20
313.82916748928579
30
0
40
6.2497318501254995
210
0
220
0
230
1
0
CIRCLE
5
330
100
AcDbEntity
8
0
100
AcDbCircle
10
-89.933856166662167
20
283.83045460869431
30
0
40
6.2497318501254995
210
0
220
0
230
1
0
CIRCLE
5
331
100
AcDbEntity
8
0
100
AcDbCircle
10
90.05842111693039
20
193.83431596687629
30
0
40
6.2497318501254995
210
0
220
0
230
1
0
CIRCLE
5
332
100
AcDbEntity
8
0
100
AcDbCircle
10
-89.933856166662167
20
193.83431596687629
30
0
40
6.2497318501254995
210
0
220
0
230
1
0
CIRCLE
5
333
100
AcDbEntity
8
0
100
AcDbCircle
10
180.05455975873761
20
373.82659325049792
30
0
40
6.2497318501254995
210
0
220
0
230
1
0
CIRCLE
5
334
100
AcDbEntity
8
0
100
AcDbCircle
10
120.05713399755462
20
73.839464444470309
30
0
40
6.2497318501254995
210
0
220
0
230
1
0
LWPOLYLINE
5
335
100
AcDbEntity
8
0
100
AcDbPolyline
90
8
70
1
43
0.0
10
146.35628192788505
20
67.589732594344781
42
-0.41421356237309048
10
142.35628192788508
20
71.589732594344767
10
142.35628192788511
20
106.83796297230762
42
-0.41421356237308982
10
146.35628192788511
20
110.83796297230762
10
153.50628192788511
20
110.83796297230764
42
-0.41421356237309892
10
157.50628192788511
20
106.83796297230762
10
157.50628192788508
20
71.589732594344767
42
-0.41421356237309176
10
153.50628192788508
20
67.589732594344767
0
LWPOLYLINE
5
336
100
AcDbEntity
8
0
100
AcDbPolyline
90
8
70
1
43
0.0
10
-174.90309896086714
20
403.8255742809784
10
-174.90309896086711
20
494.57123042014587
42
0.4142135623730851
10
-181.15309896086706
20
500.82123042014575
10
-193.65309896086706
20
500.82123042014575
42
0.41421356237308837
10
-199.90309896086706
20
494.57123042014587
10
-199.90309896086711
20
403.82557428097834
42
0.4142135623730917
10
-193.65309896086706
20
397.5755742809784
10
-181.15309896086711
20
397.57557428097846
42
0.4142135623730917
0
LWPOLYLINE
5
337
100
AcDbEntity
8
0
100
AcDbPolyline
90
8
70
1
43
0.0
10
7.5750000000000108
20
71.58973259434481
10
7.5750000000000108
20
106.83796297230765
42
0.41421356237309243
10
3.5750000000000104
20
110.83796297230765
10
-3.5749999999999806
20
110.83796297230765
42
0.41421356237309243
10
-7.5749999999999842
20
106.83796297230765
10
-7.5749999999999842
20
71.58973259434481
42
0.41421356237309342
10
-3.5749999999999837
20
67.58973259434481
10
3.5750000000000073
20
67.58973259434481
42
0.4142135623730942
0
LWPOLYLINE
5
338
100
AcDbEntity
8
0
100
AcDbPolyline
90
8
70
1
43
0.0
10
193.65309896086723
20
500.82123042014564
10
181.15309896086723
20
500.82123042014564
42
0.41421356237308837
10
174.90309896086725
20
494.57123042014581
10
174.90309896086714
20
403.82557428097834
42
0.41421356237310336
10
181.15309896086717
20
397.57557428097834
10
193.65309896086714
20
397.57557428097834
42
0.41421356237308338
10
199.90309896086717
20
403.82557428097823
10
199.90309896086725
20
494.57123042014581
42
0.41421356237308671
0
LWPOLYLINE
5
339
100
AcDbEntity
8
0
100
AcDbPolyline
90
8
70
1
43
0.0
10
-142.35628192788508
20
71.58973259434481
10
-142.35628192788508
20
106.83796297230765
42
0.41421356237308982
10
-146.35628192788508
20
110.83796297230765
10
-153.50628192788508
20
110.83796297230765
42
0.41421356237308982
10
-157.50628192788508
20
106.83796297230765
10
-157.50628192788508
20
71.58973259434481
42
0.41421356237309176
10
-153.50628192788508
20
67.58973259434481
10
-146.35628192788508
20
67.58973259434481
42
0.41421356237309176
0
LWPOLYLINE
5
340
100
AcDbEntity
8
0
100
AcDbPolyline
90
8
70
1
43
0.0
10
152.60646367889558
20
62.590161634139456
10
147.60680691072906
20
62.590161634139449
42
0.41421356237309587
10
141.35680691072906
20
56.340161634139434
10
141.35680691072906
20
24.841620369468362
42
0.41421356237309254
10
147.60680691072906
20
18.591620369464721
10
152.60646367889558
20
18.591620369464717
42
0.4142135623730952
10
158.85646367889558
20
24.841620369468362
10
158.85646367889558
20
56.340161634139434
42
0.41421356237309465
0
LWPOLYLINE
5
341
100
AcDbEntity
8
0
100
AcDbPolyline
90
8
70
1
43
0.0
10
-158.68111031196753
20
56.340161634139434
10
-158.68111031196756
20
24.841620369468362
42
0.41421356237309759
10
-152.43111031196756
20
18.591620369464721
10
-147.43145354380115
20
18.591620369464717
42
0.41421356237309442
10
-141.18145354379743
20
24.841620369468362
10
-141.18145354379746
20
56.340161634139434
42
0.41421356237309503
10
-147.43145354380115
20
62.590161634139449
10
-152.43111031196756
20
62.590161634139449
42
0.41421356237309587
0
LWPOLYLINE
5
342
100
AcDbEntity
8
0
100
AcDbPolyline
90
8
70
1
43
0.0
10
66.360024709197603
20
56.340161634139434
10
66.360024709197617
20
24.841620369468362
42
0.41421356237309503
10
72.61002470919766
20
18.591620369464721
10
77.859681477364049
20
18.341620369464717
42
0.4142135623730957
10
84.109681477364035
20
24.591620369468359
10
84.109681477364049
20
56.090161634139442
42
0.41421356237309503
10
77.859681477364049
20
62.340161634139442
10
72.61002470919766
20
62.590161634139449
42
0.41421356237309759
0
LWPOLYLINE
5
343
100
AcDbEntity
8
0
100
AcDbPolyline
90
8
70
1
43
0.0
10
-83.684328110465245
20
56.340161634139434
10
-83.684328110465259
20
24.841620369468362
42
0.41421356237309398
10
-77.434328110465259
20
18.591620369464721
10
-72.434671342298813
20
18.591620369464717
42
0.41421356237309775
10
-66.184671342298813
20
24.841620369468362
10
-66.184671342298813
20
56.340161634139434
42
0.41421356237309709
10
-72.434671342298813
20
62.590161634139449
10
-77.434328110465259
20
62.590161634139449
42
0.41421356237309548
0
LWPOLYLINE
5
344
100
AcDbEntity
8
0
100
AcDbPolyline
90
8
70
1
43
0.0
10
-8.6621517006338244
20
56.340161634139434
10
-8.662151700633828
20
24.841620369468362
42
0.41421356237309426
10
-2.4121517006338244
20
18.591620369464724
10
2.5875050675326454
20
18.591620369464717
42
0.41421356237309503
10
8.8375050675326339
20
24.841620369468362
10
8.8375050675326339
20
56.340161634139434
42
0.41421356237309792
10
2.5875050675326472
20
62.590161634139449
10
-2.4121517006338231
20
62.590161634139449
42
0.4142135623730962
0
LWPOLYLINE
5
345
100
AcDbEntity
8
0
100
AcDbPolyline
90
114
70
1
43
0.0
10
81.406107338434992
20
893.47000890570985
10
128.3619519354902
20
893.47000890570985
42
0.26013752438077753
10
145.38301221393809
20
883.97160435580417
10
160.10620625499573
20
883.97160435580417
42
0.41421356237312668
10
166.35593810512134
20
890.22133620592967
10
166.3559381051212
20
894.97130436221005
42
-0.41421356237312418
10
171.3557235852216
20
899.9710898423217
10
195.10124357385806
20
899.97108984233694
42
-0.40056058376094034
10
215.07845232778476
20
880.90832816253305
10
215.07845232778482
20
806.30803727918624
42
-0.41421356237309837
10
208.82872047765926
20
800.0583054290496
10
178.35542325737669
20
800.0583054290496
42
0.41421356237306844
10
172.1056914072584
20
793.8085735789241
10
172.10569140725849
20
765.55978561636425
42
0.99999999999999989
10
188.10500494355796
20
765.55978561636391
10
188.10500494355796
20
776.25360828245778
42
-0.4142135623730967
10
194.35473679368351
20
782.50334013259408
10
208.82872047765926
20
782.50334013259408
42
-0.41421356237310003
10
215.07845232778487
20
776.25360828245778
10
215.07845232779198
20
656.31447287618153
42
-0.41421356237306506
10
208.82872047766654
20
650.06474102604511
10
178.35542325738399
20
650.064741026045
42
0.41421356237309342
10
172.10569140725852
20
643.81500917591211
10
172.10569140725849
20
615.56622121334499
42
0.99999999999999989
10
188.10500494356515
20
615.56622121334499
10
188.10500494356515
20
626.26004387945659
42
-0.41421356237309503
10
194.35473679369065
20
632.50977572958209
10
208.82872047766654
20
632.50977572958209
42
-0.41421356237310669
10
215.07845232778476
20
626.26004387945295
10
215.0784523277847
20
498.82123025300046
42
-0.06650479760768116
10
214.9030989608637
20
497.50870991703033
10
214.9030989608637
20
400.13804098697511
42
-0.066504797608013588
10
215.07845232778479
20
398.82552065099645
10
215.07845232779206
20
333.82785589247072
42
-0.41068942364012512
10
208.90401002764725
20
327.57857755956184
10
179.97927020877884
20
327.57857755956189
42
0.4106894236400544
10
173.80482790863394
20
321.32929922666398
10
173.80482790861211
20
216.41986118528007
42
0.41089937695143602
10
179.98376068133695
20
210.17053036596681
10
208.89951955509622
20
209.84294184322147
42
-0.41089937695142664
10
215.07845232781395
20
203.5936110239119
10
215.07845232780667
20
153.83591323021446
42
-0.41068942364010097
10
208.90401002763264
20
147.58663489730921
10
180.10534817539735
20
147.58618138008896
42
0.41068942364006888
10
173.930905875267
20
141.33690304718371
10
173.80482180496401
20
6.2532590240352635
42
-0.41392414242534076
10
167.55509300667345
20
0.0097034242495208645
10
-167.37973963975281
20
0.0097034242494775658
42
-0.41392414242534281
10
-173.62946843806151
20
6.2532590240352626
10
-173.75555250834987
20
141.33690304718371
42
0.41068942364007321
10
-179.92999480846933
20
147.58618138008896
10
-208.72865666070476
20
147.58663489730918
42
-0.41068942364009436
10
-214.90309896084955
20
153.83591323021443
10
-214.90309896084227
20
203.5936110239156
42
-0.41089937695135059
10
-208.72416618812099
20
209.84294184322147
10
-179.80840731439085
20
210.17053036596681
42
0.41089937695143608
10
-173.62947454170964
20
216.4198611852801
10
-173.62947454172053
20
321.32929922666398
42
0.41068942364007666
10
-179.80391684185088
20
327.57857755956189
10
-208.72865666071198
20
327.57857755956195
42
-0.41068942364009275
10
-214.90309896085679
20
333.82785589246708
10
-214.90309896085682
20
626.26004387945659
42
-0.4142135623730967
10
-208.6533671107313
20
632.50977572958209
10
-194.17938342677363
20
632.50977572958209
42
-0.41421356237309503
10
-187.92965157664813
20
626.26004387945659
10
-187.92965157664815
20
615.56622121334499
42
0.99999999999999989
10
-171.93033804032689
20
615.56622121334499
10
-171.93033804032689
20
643.81500917591211
42
0.41421356237311169
10
-178.18006989045608
20
650.064741026045
10
-208.65336711073138
20
650.064741026045
42
-0.41421356237308338
10
-214.90309896086418
20
656.31447287617402
10
-214.9030989608641
20
776.25360828245778
42
-0.41421356237309342
10
-208.65336711073863
20
782.50334013259408
10
-194.17938342678093
20
782.50334013259408
42
-0.41421356237309503
10
-187.92965157665543
20
776.25360828245778
10
-187.92965157665543
20
765.55978561636425
42
0.99999999999999989
10
-171.93033804032689
20
765.55978561636448
10
-171.93033804032683
20
793.8085735789241
42
0.41421356237311169
10
-178.18006989045608
20
800.0583054290496
10
-208.65336711073863
20
800.0583054290496
42
-0.41421356237309503
10
-214.90309896086413
20
806.3080372791751
10
-214.90309896086418
20
880.90832816252237
42
-0.40056058376088227
10
-194.9258902069555
20
899.9710898423217
10
-171.1803702183191
20
899.97108984232159
42
-0.41421356237308671
10
-166.18058473820781
20
894.97130436221016
10
-166.18058473820781
20
890.22133620592979
42
0.41421356237312418
10
-159.93085288807504
20
883.97160435580406
10
-145.20765884701774
20
883.97160435580395
42
0.2598092118291434
10
-128.1995295784827
20
893.44907905125876
10
-81.361007481245778
20
893.44907905125888
42
-0.19007871737936086
10
-104.55111899261865
20
860.05560457810077
42
0.25073136076613217
10
-140.00000000000003
20
793.8087151166377
42
0.41421356237309503
10
-133.75000000000003
20
787.55871511663781
10
-107.38258508024654
20
787.55871511663781
42
0.41421356237309503
10
-101.13258508024654
20
793.80871511663781
10
-101.13258508024299
20
817.80741727124541
42
-0.99999999999999989
10
-78.633550419791121
20
817.80741727124541
10
-78.633550419791121
20
793.80871511663781
42
0.41421356237309503
10
-72.383550419791121
20
787.55871511663781
10
-17.386446438439364
20
787.55871511663781
42
0.41421356237309515
10
-11.136446438439362
20
793.80871511663781
10
-11.136446438406615
20
817.80741727124541
42
-0.99999999999999989
10
11.362588222016061
20
817.80741727124541
10
11.362588222016061
20
793.80871511663781
42
0.41421356237309503
10
17.612588222016061
20
787.55871511663781
10
72.609692203386018
20
787.55871511663781
42
0.41421356237309503
10
78.859692203386018
20
793.80871511663781
10
78.859692203400598
20
817.80741727124541
42
-0.99999999999999989
10
101.35872686382319
20
817.80741727124541
10
101.35872686382321
20
793.80871511663781
42
0.41421356237309503
10
107.60872686382321
20
787.55871511663781
10
133.74999999999997
20
787.55871511663781
42
0.41421356237309503
10
139.99999999999997
20
793.80871511663781
42
0.25009127928161123
10
104.65372295578199
20
860.05560457810088
42
-0.18838180909493793
0
CIRCLE
5
346
100
AcDbEntity
8
0
100
AcDbCircle
10
0.088492076673958309
20
927.08495786460867
30
0
40
3.0000000000000027
210
-0
220
0
230
1
0
CIRCLE
5
347
100
AcDbEntity
8
0
100
AcDbCircle
10
97.398865750326848
20
913.29765002196268
30
0
40
3.0000000000000071
210
-0
220
0
230
1
0
CIRCLE
5
348
100
AcDbEntity
8
0
100
AcDbCircle
10
-97.309967702820757
20
913.29765002196268
30
0
40
3.0000000000000071
210
-0
220
0
230
1
0
LWPOLYLINE
5
349
100
AcDbEntity
8
0
100
AcDbPolyline
90
12
70
1
43
0.0
10
76.841873812754272
20
898.07597224909728
42
-0.27966078110468651
10
81.406107338434992
20
893.47000890570985
10
128.3619519354902
20
893.47000890570985
42
-0.072122860367262634
10
126.08019902869813
20
898.7369693985479
10
117.99518471038596
20
928.55060917681715
10
71.538713984988576
20
938.8414290886974
42
0.10944258920930237
10
-71.236364877523229
20
938.83824721706537
10
-117.82949435790343
20
928.51497663242401
10
-125.90484566177813
20
898.73696939854767
42
-0.072431994824417978
10
-128.1995295784827
20
893.44907905125876
10
-81.361007481245693
20
893.44907905125876
42
-0.28079329801854136
10
-76.790441047737318
20
898.08032341149953
42
-0.12287899979859704
0
CIRCLE
5
350
100
AcDbEntity
8
0
100
AcDbCircle
10
-149.9312819278851
20
27.591448753545222
30
0
40
3.9998283840803239
210
0
220
-0
230
1
0
CIRCLE
5
351
100
AcDbEntity
8
0
100
AcDbCircle
10
-149.9312819278851
20
53.590333250060027
30
0
40
3.9998283840803239
210
0
220
-0
230
1
0
LWPOLYLINE
5
352
100
AcDbEntity
8
0
100
AcDbPolyline
90
8
70
1
43
0.0
10
-158.68111031196753
20
56.340161634139434
42
-0.41421356237309587
10
-152.43111031196756
20
62.590161634139449
10
-147.43145354380115
20
62.590161634139456
42
-0.41421356237309503
10
-141.18145354379746
20
56.340161634139434
10
-141.18145354379743
20
24.841620369468362
42
-0.41421356237309442
10
-147.43145354380115
20
18.591620369464721
10
-152.43111031196756
20
18.591620369464721
42
-0.41421356237309759
10
-158.68111031196756
20
24.841620369468362
0
CIRCLE
5
353
100
AcDbEntity
8
0
100
AcDbCircle
10
-74.934499726379158
20
53.590333250060027
30
0
40
3.999828384080315
210
0
220
-0
230
1
0
CIRCLE
5
354
100
AcDbEntity
8
0
100
AcDbCircle
10
-74.934499726379158
20
27.591448753545222
30
0
40
3.999828384080315
210
0
220
-0
230
1
0
LWPOLYLINE
5
355
100
AcDbEntity
8
0
100
AcDbPolyline
90
8
70
1
43
0.0
10
-83.684328110465245
20
56.340161634139434
42
-0.41421356237309548
10
-77.434328110465259
20
62.590161634139449
10
-72.434671342298813
20
62.590161634139449
42
-0.41421356237309709
10
-66.184671342298813
20
56.340161634139434
10
-66.184671342298813
20
24.841620369468359
42
-0.41421356237309731
10
-72.434671342298813
20
18.591620369464721
10
-77.434328110465259
20
18.591620369464724
42
-0.41421356237309398
10
-83.684328110465259
20
24.841620369468362
0
CIRCLE
5
356
100
AcDbEntity
8
0
100
AcDbCircle
10
0.087676683453055126
20
53.590333250060027
30
0
40
3.9998283840803195
210
0
220
-0
230
1
0
CIRCLE
5
357
100
AcDbEntity
8
0
100
AcDbCircle
10
0.087676683453055126
20
27.591448753545222
30
0
40
3.9998283840803195
210
0
220
-0
230
1
0
LWPOLYLINE
5
358
100
AcDbEntity
8
0
100
AcDbPolyline
90
8
70
1
43
0.0
10
-8.6621517006338209
20
56.340161634139434
42
-0.4142135623730962
10
-2.4121517006338236
20
62.590161634139449
10
2.5875050675326454
20
62.590161634139456
42
-0.41421356237309798
10
8.8375050675326356
20
56.340161634139434
10
8.8375050675326356
20
24.841620369468362
42
-0.41421356237309498
10
2.5875050675326463
20
18.591620369464721
10
-2.4121517006338222
20
18.591620369464724
42
-0.41421356237309431
10
-8.662151700633828
20
24.841620369468362
0
CIRCLE
5
359
100
AcDbEntity
8
0
100
AcDbCircle
10
75.109853093281615
20
27.591448753545222
30
0
40
3.9998283840803239
210
0
220
-0
230
1
0
CIRCLE
5
360
100
AcDbEntity
8
0
100
AcDbCircle
10
75.109853093281615
20
53.590333250060027
30
0
40
3.9998283840803239
210
0
220
-0
230
1
0
LWPOLYLINE
5
361
100
AcDbEntity
8
0
100
AcDbPolyline
90
8
70
1
43
0.0
10
66.360024709197603
20
56.340161634139434
42
-0.41421356237309759
10
72.61002470919766
20
62.590161634139449
10
77.859681477364049
20
62.340161634139442
42
-0.41421356237309503
10
84.109681477364049
20
56.090161634139442
10
84.109681477364035
20
24.591620369468359
42
-0.4142135623730957
10
77.859681477364049
20
18.341620369464717
10
72.61002470919766
20
18.591620369464721
42
-0.41421356237309503
10
66.360024709197617
20
24.841620369468362
0
CIRCLE
5
362
100
AcDbEntity
8
0
100
AcDbCircle
10
150.10663529480939
20
27.591448753545222
30
0
40
3.9998283840803239
210
0
220
-0
230
1
0
CIRCLE
5
363
100
AcDbEntity
8
0
100
AcDbCircle
10
150.10663529480939
20
53.590333250060027
30
0
40
3.9998283840803239
210
0
220
-0
230
1
0
LWPOLYLINE
5
364
100
AcDbEntity
8
0
100
AcDbPolyline
90
8
70
1
43
0.0
10
152.60646367889555
20
62.590161634139463
42
-0.41421356237309548
10
158.85646367889558
20
56.340161634139434
10
158.85646367889558
20
24.841620369468362
42
-0.4142135623730952
10
152.60646367889558
20
18.591620369464717
10
147.60680691072906
20
18.591620369464721
42
-0.41421356237309254
10
141.35680691072906
20
24.841620369468362
10
141.35680691072906
20
56.340161634139434
42
-0.41421356237309587
10
147.60680691072906
20
62.590161634139449
0
CIRCLE
5
365
100
AcDbEntity
8
0
100
AcDbCircle
10
544.10579071392124
20
257.44280530145306
30
0
40
4.5000000000000284
210
0
220
0
230
1
0
LWPOLYLINE
5
366
100
AcDbEntity
8
0
100
AcDbPolyline
90
15
70
1
43
0.0
10
553.1057907138761
20
239.57354599975667
10
517.4557905754582
20
239.57354599999769
10
517.45579100000009
20
232.07354600000144
10
390.70511800000008
20
232.07354611433757
42
0.28219099692880195
10
388.47692157963735
20
230.70718656164422
10
334.06217664700279
20
123.75375516120332
10
309.83394755101489
20
125.24058539053232
42
-0.53987491116159758
10
307.75888136782385
20
128.86953747168209
10
383.34558718834984
20
277.43694661587722
42
-0.28219099316166518
10
392.11108293335889
20
282.81206460290838
10
517.45579091049945
20
282.81206460290838
10
517.45579085238433
20
275.31206460290838
10
553.1057907138761
20
275.31206460289957
42
-0.41421356237309503
10
555.60579071390384
20
272.81206460287189
10
555.60579071412178
20
242.07355863152878
42
-0.41421504224551042
0
CIRCLE
5
367
100
AcDbEntity
8
0
100
AcDbCircle
10
451.11260296918977
20
191.72017056957651
30
0
40
4.5000000000000284
210
0
220
0
230
1
0
LWPOLYLINE
5
368
100
AcDbEntity
8
0
100
AcDbPolyline
90
6
70
1
43
0.0
10
439.61260296918988
20
174.22017056957645
10
439.61260296918988
20
209.22017056957645
10
460.11260296918977
20
209.22017056957642
42
-0.41421356237309503
10
462.61260296918971
20
206.72017056957651
10
462.61260296918977
20
176.72017056957642
42
-0.41421356237309503
10
460.11260296918977
20
174.22017056957642
0
ENDSEC
0
SECTION
2
OBJECTS
0
DICTIONARY
5
C
100
AcDbDictionary
3
ACAD_GROUP
350
D
3
ACAD_MLINESTYLE
350
17
0
DICTIONARY
5
D
100
AcDbDictionary
0
DICTIONARY
5
1A
330
C
100
AcDbDictionary
0
DICTIONARY
5
17
100
AcDbDictionary
0
ENDSEC
0
EOF
